0
SECTION
2
HEADER
9
$INSUNITS
70
4
9
$ACADVER
1
AC1014
9
$HANDSEED
5
FFFF
0
ENDSEC
0
SECTION
2
TABLES
0
TABLE
2
VPORT
5
8
100
AcDbSymbolTable
0
ENDTAB
0
TABLE
2
LTYPE
5
5
100
AcDbSymbolTable
0
LTYPE
5
14
100
AcDbSymbolTableRecord
100
AcDbLinetypeTableRecord
2
BYBLOCK
70
0
0
LTYPE
5
15
100
AcDbSymbolTableRecord
100
AcDbLinetypeTableRecord
2
BYLAYER
70
0
0
ENDTAB
0
TABLE
2
LAYER
5
2
100
AcDbSymbolTable
70
2
0
LAYER
5
50
100
AcDbSymbolTableRecord
100
AcDbLayerTableRecord
2
0
70
0
6
CONTINUOUS
0
ENDTAB
0
TABLE
2
STYLE
5
3
100
AcDbSymbolTable
70
1
0
STYLE
5
11
100
AcDbSymbolTableRecord
100
AcDbTextStyleTableRecord
2
STANDARD
70
0
0
ENDTAB
0
TABLE
2
VIEW
5
6
100
AcDbSymbolTable
70
0
0
ENDTAB
0
TABLE
2
UCS
5
7
100
AcDbSymbolTable
70
0
0
ENDTAB
0
TABLE
2
APPID
5
9
100
AcDbSymbolTable
70
2
0
APPID
5
12
100
AcDbSymbolTableRecord
100
AcDbRegAppTableRecord
2
ACAD
70
0
0
ENDTAB
0
TABLE
2
DIMSTYLE
5
A
100
AcDbSymbolTable
70
1
0
ENDTAB
0
TABLE
2
BLOCK_RECORD
5
1
100
AcDbSymbolTable
70
1
0
BLOCK_RECORD
5
1F
100
AcDbSymbolTableRecord
100
AcDbBlockTableRecord
2
*MODEL_SPACE
0
BLOCK_RECORD
5
1B
100
AcDbSymbolTableRecord
100
AcDbBlockTableRecord
2
*PAPER_SPACE
0
ENDTAB
0
ENDSEC
0
SECTION
2
BLOCKS
0
BLOCK
5
20
100
AcDbEntity
100
AcDbBlockBegin
2
*MODEL_SPACE
0
ENDBLK
5
21
100
AcDbEntity
100
AcDbBlockEnd
0
BLOCK
5
1C
100
AcDbEntity
100
AcDbBlockBegin
2
*PAPER_SPACE
0
ENDBLK
5
1D
100
AcDbEntity
100
AcDbBlockEnd
0
ENDSEC
0
SECTION
2
ENTITIES
0
LWPOLYLINE
5
100
100
AcDbEntity
8
0
100
AcDbPolyline
90
18
70
1
43
0.0
10
0
20
110
10
2.5
20
110
10
2.5
20
190
10
0
20
190
10
0
20
300
10
185
20
300
10
185
20
302.5
10
265
20
302.5
10
265
20
300
10
450
20
300
10
450
20
190
10
447.5
20
190
10
447.5
20
110
10
450
20
110
10
450
20
0
10
337.5
20
-2.0665914735611585e-14
42
0.99999999999999989
10
112.5
20
1.3777276490407723e-14
10
0
20
0
0
SPLINE
5
101
100
AcDbEntity
8
0
100
AcDbSpline
70
4
71
3
72
8
73
4
74
0
42
0.000000001
43
0.0000000001
44
0.0000000001
40
0
40
0
40
0
40
0
40
1
40
1
40
1
40
1
41
1
41
1
41
1
41
1
10
69.050793371981172
20
209.30253066389037
30
0
10
71.083882416514896
20
209.56899693474611
30
0
10
74.011123228295887
20
209.71256329828242
30
0
10
78.151472341209725
20
209.87683838072746
30
0
0
SPLINE
5
102
100
AcDbEntity
8
0
100
AcDbSpline
70
4
71
3
72
8
73
4
74
0
42
0.000000001
43
0.0000000001
44
0.0000000001
40
0
40
0
40
0
40
0
40
1
40
1
40
1
40
1
41
1
41
1
41
1
41
1
10
78.151472341209725
20
209.87683838072746
30
0
10
74.028704508022429
20
208.34278719920164
30
0
10
71.977527031462373
20
207.65001715766843
30
0
10
69.659418394438461
20
206.85835241767336
30
0
0
SPLINE
5
103
100
AcDbEntity
8
0
100
AcDbSpline
70
4
71
3
72
8
73
4
74
0
42
0.000000001
43
0.0000000001
44
0.0000000001
40
0
40
0
40
0
40
0
40
1
40
1
40
1
40
1
41
1
41
1
41
1
41
1
10
69.659418394438461
20
206.85835241767336
30
0
10
68.984483208781725
20
206.6902736929797
30
0
10
68.301053222103235
20
207.10119384389645
30
0
10
68.133016760101299
20
207.7761290295532
30
0
0
SPLINE
5
104
100
AcDbEntity
8
0
100
AcDbSpline
70
4
71
3
72
8
73
4
74
0
42
0.000000001
43
0.0000000001
44
0.0000000001
40
0
40
0
40
0
40
0
40
1
40
1
40
1
40
1
41
1
41
1
41
1
41
1
10
68.133016760101299
20
207.7761290295532
30
0
10
67.964938035407712
20
208.45106421520995
30
0
10
68.375858186324436
20
209.13445193919677
30
0
10
69.050793371981172
20
209.30253066389037
30
0
0
SPLINE
5
105
100
AcDbEntity
8
0
100
AcDbSpline
70
4
71
3
72
8
73
4
74
0
42
0.000000001
43
0.0000000001
44
0.0000000001
40
-1
40
-1
40
-1
40
-1
40
0
40
0
40
0
40
0
41
1
41
1
41
1
41
1
10
109.60636811853755
20
209.30253066389037
30
0
10
110.2813033041943
20
209.13445193919677
30
0
10
110.69222345511109
20
208.45106421520995
30
0
10
110.5241447304175
20
207.7761290295532
30
0
0
SPLINE
5
106
100
AcDbEntity
8
0
100
AcDbSpline
70
4
71
3
72
8
73
4
74
0
42
0.000000001
43
0.0000000001
44
0.0000000001
40
-1
40
-1
40
-1
40
-1
40
0
40
0
40
0
40
0
41
1
41
1
41
1
41
1
10
110.5241447304175
20
207.7761290295532
30
0
10
110.3561082684155
20
207.10119384389645
30
0
10
109.67267828173706
20
206.6902736929797
30
0
10
108.99774309608033
20
206.85835241767336
30
0
0
SPLINE
5
107
100
AcDbEntity
8
0
100
AcDbSpline
70
4
71
3
72
8
73
4
74
0
42
0.000000001
43
0.0000000001
44
0.0000000001
40
-1
40
-1
40
-1
40
-1
40
0
40
0
40
0
40
0
41
1
41
1
41
1
41
1
10
108.99774309608033
20
206.85835241767336
30
0
10
106.67963445905636
20
207.65001715766843
30
0
10
104.6284569824963
20
208.34278719920164
30
0
10
100.50568914930908
20
209.87683838072746
30
0
0
SPLINE
5
108
100
AcDbEntity
8
0
100
AcDbSpline
70
4
71
3
72
8
73
4
74
0
42
0.000000001
43
0.0000000001
44
0.0000000001
40
-1
40
-1
40
-1
40
-1
40
0
40
0
40
0
40
0
41
1
41
1
41
1
41
1
10
100.50568914930908
20
209.87683838072746
30
0
10
104.6460382622229
20
209.71256329828242
30
0
10
107.57327907400392
20
209.56899693474611
30
0
10
109.60636811853755
20
209.30253066389037
30
0
0
SPLINE
5
109
100
AcDbEntity
8
0
100
AcDbSpline
70
4
71
3
72
8
73
4
74
0
42
0.000000001
43
0.0000000001
44
0.0000000001
40
0
40
0
40
0
40
0
40
1
40
1
40
1
40
1
41
1
41
1
41
1
41
1
10
78.495321600477268
20
229.72568056510005
30
0
10
79.468715914569088
20
227.92093684355342
30
0
10
80.645900927799033
20
225.23700234760378
30
0
10
82.274620538621818
20
221.42693616993773
30
0
0
SPLINE
5
110
100
AcDbEntity
8
0
100
AcDbSpline
70
4
71
3
72
8
73
4
74
0
42
0.000000001
43
0.0000000001
44
0.0000000001
40
0
40
0
40
0
40
0
40
1
40
1
40
1
40
1
41
1
41
1
41
1
41
1
10
82.274620538621818
20
221.42693616993773
30
0
10
79.372272452222859
20
224.73251259737305
30
0
10
77.994086077503638
20
226.4022270190967
30
0
10
76.428422402623312
20
228.28612876210451
30
0
0
SPLINE
5
111
100
AcDbEntity
8
0
100
AcDbSpline
70
4
71
3
72
8
73
4
74
0
42
0.000000001
43
0.0000000001
44
0.0000000001
40
0
40
0
40
0
40
0
40
1
40
1
40
1
40
1
41
1
41
1
41
1
41
1
10
76.428422402623312
20
228.28612876210451
30
0
10
76.030899524959722
20
228.85688641284298
30
0
10
76.171338449313993
20
229.64183138486567
30
0
10
76.742096100052478
20
230.03935426252926
30
0
0
SPLINE
5
112
100
AcDbEntity
8
0
100
AcDbSpline
70
4
71
3
72
8
73
4
74
0
42
0.000000001
43
0.0000000001
44
0.0000000001
40
0
40
0
40
0
40
0
40
1
40
1
40
1
40
1
41
1
41
1
41
1
41
1
10
76.742096100052478
20
230.03935426252926
30
0
10
77.312853750790978
20
230.43687714019285
30
0
10
78.097798722813693
20
230.29643821583858
30
0
10
78.495321600477268
20
229.72568056510005
30
0
0
SPLINE
5
113
100
AcDbEntity
8
0
100
AcDbSpline
70
4
71
3
72
8
73
4
74
0
42
0.000000001
43
0.0000000001
44
0.0000000001
40
-1
40
-1
40
-1
40
-1
40
-3.0428118387697914e-06
40
-3.0428118387697914e-06
40
-3.0428118387697914e-06
40
-3.0428118387697914e-06
41
1
41
1
41
1
41
1
10
107.55929012306764
20
240.85002399862421
30
0
10
101.55842879517608
20
241.85862006588349
30
0
10
98.568850447139596
20
238.61396699193079
30
0
10
98.231156429930465
20
233.82592382846522
30
0
0
SPLINE
5
114
100
AcDbEntity
8
0
100
AcDbSpline
70
4
71
3
72
8
73
4
74
0
42
0.000000001
43
0.0000000001
44
0.0000000001
40
-1
40
-1
40
-1
40
-1
40
0
40
0
40
0
40
0
41
1
41
1
41
1
41
1
10
98.231153347376676
20
233.8259223836377
30
0
10
97.082706964468969
20
236.27614419476072
30
0
10
94.02842450158694
20
237.41977263082026
30
0
10
91.587838584160124
20
235.45874147555054
30
0
0
SPLINE
5
115
100
AcDbEntity
8
0
100
AcDbSpline
70
4
71
3
72
8
73
4
74
0
42
0.000000001
43
0.0000000001
44
0.0000000001
40
-1
40
-1
40
-1
40
-1
40
0
40
0
40
0
40
0
41
1
41
1
41
1
41
1
10
91.587838584160124
20
235.45874147555054
30
0
10
92.103739261136468
20
240.03807316663696
30
0
10
95.000508672237558
20
251.30319362604854
30
0
10
103.81363228747682
20
256.15604945749629
30
0
0
SPLINE
5
116
100
AcDbEntity
8
0
100
AcDbSpline
70
4
71
3
72
8
73
4
74
0
42
0.000000001
43
0.0000000001
44
0.0000000001
40
-1
40
-1
40
-1
40
-1
40
0
40
0
40
0
40
0
41
1
41
1
41
1
41
1
10
103.81363228747682
20
256.15604945749629
30
0
10
109.88842932261232
20
259.06494826110105
30
0
10
118.03608459512449
20
254.55116600476433
30
0
10
115.7175110684924
20
249.22167153688352
30
0
0
SPLINE
5
117
100
AcDbEntity
8
0
100
AcDbSpline
70
4
71
3
72
8
73
4
74
0
42
0.000000001
43
0.0000000001
44
0.0000000001
40
-1
40
-1
40
-1
40
-1
40
0
40
0
40
0
40
0
41
1
41
1
41
1
41
1
10
115.7175110684924
20
249.22167153688352
30
0
10
113.23893099127199
20
244.85344199059082
30
0
10
109.27747985211425
20
246.57666097994382
30
0
10
110.78524363943356
20
250.11899300600462
30
0
0
SPLINE
5
118
100
AcDbEntity
8
0
100
AcDbSpline
70
4
71
3
72
8
73
4
74
0
42
0.000000001
43
0.0000000001
44
0.0000000001
40
-1
40
-1
40
-1
40
-1
40
0
40
0
40
0
40
0
41
1
41
1
41
1
41
1
10
110.78524363943356
20
250.11899300600462
30
0
10
106.02177340082645
20
252.63413031150264
30
0
10
102.6582970858301
20
244.51394578856321
30
0
10
107.55929012306764
20
240.85002399862421
30
0
0
SPLINE
5
119
100
AcDbEntity
8
0
100
AcDbSpline
70
4
71
3
72
8
73
4
74
0
42
0.000000001
43
0.0000000001
44
0.0000000001
40
0
40
0
40
0
40
0
40
1
40
1
40
1
40
1
41
1
41
1
41
1
41
1
10
52.440076359169929
20
185.94423682756099
30
0
10
47.11058189128903
20
183.62566330092898
30
0
10
42.596799634952411
20
191.77331857344114
30
0
10
45.505698438557125
20
197.84811560857662
30
0
0
SPLINE
5
120
100
AcDbEntity
8
0
100
AcDbSpline
70
4
71
3
72
8
73
4
74
0
42
0.000000001
43
0.0000000001
44
0.0000000001
40
0
40
0
40
0
40
0
40
1
40
1
40
1
40
1
41
1
41
1
41
1
41
1
10
45.505698438557125
20
197.84811560857662
30
0
10
50.358554270004838
20
206.66123922381587
30
0
10
61.623674729416493
20
209.55800863491697
30
0
10
66.203006420502916
20
210.07390931189326
30
0
0
SPLINE
5
121
100
AcDbEntity
8
0
100
AcDbSpline
70
4
71
3
72
8
73
4
74
0
42
0.000000001
43
0.0000000001
44
0.0000000001
40
0
40
0
40
0
40
0
40
1
40
1
40
1
40
1
41
1
41
1
41
1
41
1
10
66.203006420502916
20
210.07390931189326
30
0
10
64.241975265233165
20
207.63332339446652
30
0
10
65.385603701292737
20
204.57904093158447
30
0
10
67.835825512415767
20
203.43059454867671
30
0
0
SPLINE
5
122
100
AcDbEntity
8
0
100
AcDbSpline
70
4
71
3
72
8
73
4
74
0
42
0.000000001
43
0.0000000001
44
0.0000000001
40
3.0428118371529826e-06
40
3.0428118371529826e-06
40
3.0428118371529826e-06
40
3.0428118371529826e-06
40
1
40
1
40
1
40
1
41
1
41
1
41
1
41
1
10
67.83582406758832
20
203.43059146612288
30
0
10
63.047780904122696
20
203.0928974489139
30
0
10
59.803127830169991
20
200.10331910087729
30
0
10
60.811723897429168
20
194.10245777298582
30
0
0
SPLINE
5
123
100
AcDbEntity
8
0
100
AcDbSpline
70
4
71
3
72
8
73
4
74
0
42
0.000000001
43
0.0000000001
44
0.0000000001
40
0
40
0
40
0
40
0
40
1
40
1
40
1
40
1
41
1
41
1
41
1
41
1
10
60.811723897429168
20
194.10245777298582
30
0
10
57.147802107490257
20
199.00345081022337
30
0
10
49.027617584550747
20
195.63997449522702
30
0
10
51.542754890048826
20
190.87650425661985
30
0
0
SPLINE
5
124
100
AcDbEntity
8
0
100
AcDbSpline
70
4
71
3
72
8
73
4
74
0
42
0.000000001
43
0.0000000001
44
0.0000000001
40
0
40
0
40
0
40
0
40
1
40
1
40
1
40
1
41
1
41
1
41
1
41
1
10
51.542754890048826
20
190.87650425661985
30
0
10
55.085086916109624
20
192.38426804393919
30
0
10
56.808305905462639
20
188.42281690478146
30
0
10
52.440076359169929
20
185.94423682756099
30
0
0
SPLINE
5
125
100
AcDbEntity
8
0
100
AcDbSpline
70
4
71
3
72
8
73
4
74
0
42
0.000000001
43
0.0000000001
44
0.0000000001
40
-1
40
-1
40
-1
40
-1
40
-3.0428118360019444e-06
40
-3.0428118360019444e-06
40
-3.0428118360019444e-06
40
-3.0428118360019444e-06
41
1
41
1
41
1
41
1
10
60.811723897429168
20
230.56387652860229
30
0
10
59.803127830169984
20
224.56301520071077
30
0
10
63.047780904122703
20
221.57343685267421
30
0
10
67.83582406758832
20
221.23574283546506
30
0
0
SPLINE
5
126
100
AcDbEntity
8
0
100
AcDbSpline
70
4
71
3
72
8
73
4
74
0
42
0.000000001
43
0.0000000001
44
0.0000000001
40
-1
40
-1
40
-1
40
-1
40
0
40
0
40
0
40
0
41
1
41
1
41
1
41
1
10
67.835825512415767
20
221.23573975291134
30
0
10
65.385603701292737
20
220.08729337000361
30
0
10
64.241975265233165
20
217.03301090712159
30
0
10
66.203006420502916
20
214.59242498969485
30
0
0
SPLINE
5
127
100
AcDbEntity
8
0
100
AcDbSpline
70
4
71
3
72
8
73
4
74
0
42
0.000000001
43
0.0000000001
44
0.0000000001
40
-1
40
-1
40
-1
40
-1
40
0
40
0
40
0
40
0
41
1
41
1
41
1
41
1
10
66.203006420502916
20
214.59242498969485
30
0
10
61.623674729416493
20
215.10832566667113
30
0
10
50.358554270004838
20
218.00509507777221
30
0
10
45.505698438557125
20
226.81821869301146
30
0
0
SPLINE
5
128
100
AcDbEntity
8
0
100
AcDbSpline
70
4
71
3
72
8
73
4
74
0
42
0.000000001
43
0.0000000001
44
0.0000000001
40
-1
40
-1
40
-1
40
-1
40
0
40
0
40
0
40
0
41
1
41
1
41
1
41
1
10
45.505698438557125
20
226.81821869301146
30
0
10
42.596799634952411
20
232.89301572814696
30
0
10
47.11058189128903
20
241.04067100065916
30
0
10
52.440076359169929
20
238.72209747402707
30
0
0
SPLINE
5
129
100
AcDbEntity
8
0
100
AcDbSpline
70
4
71
3
72
8
73
4
74
0
42
0.000000001
43
0.0000000001
44
0.0000000001
40
-1
40
-1
40
-1
40
-1
40
0
40
0
40
0
40
0
41
1
41
1
41
1
41
1
10
52.440076359169929
20
238.72209747402707
30
0
10
56.808305905462639
20
236.24351739680662
30
0
10
55.085086916109624
20
232.28206625764892
30
0
10
51.542754890048826
20
233.7898300449682
30
0
0
SPLINE
5
130
100
AcDbEntity
8
0
100
AcDbSpline
70
4
71
3
72
8
73
4
74
0
42
0.000000001
43
0.0000000001
44
0.0000000001
40
-1
40
-1
40
-1
40
-1
40
0
40
0
40
0
40
0
41
1
41
1
41
1
41
1
10
51.542754890048826
20
233.7898300449682
30
0
10
49.027617584550747
20
229.02635980636109
30
0
10
57.147802107490257
20
225.66288349136474
30
0
10
60.811723897429168
20
230.56387652860229
30
0
0
SPLINE
5
131
100
AcDbEntity
8
0
100
AcDbSpline
70
4
71
3
72
8
73
4
74
0
42
0.000000001
43
0.0000000001
44
0.0000000001
40
0
40
0
40
0
40
0
40
1
40
1
40
1
40
1
41
1
41
1
41
1
41
1
10
62.939650422026325
20
249.22167153688352
30
0
10
60.621076895394303
20
254.55116600476433
30
0
10
68.768732167906478
20
259.06494826110105
30
0
10
74.843529203041982
20
256.15604945749629
30
0
0
SPLINE
5
132
100
AcDbEntity
8
0
100
AcDbSpline
70
4
71
3
72
8
73
4
74
0
42
0.000000001
43
0.0000000001
44
0.0000000001
40
0
40
0
40
0
40
0
40
1
40
1
40
1
40
1
41
1
41
1
41
1
41
1
10
74.843529203041982
20
256.15604945749629
30
0
10
83.656652818281231
20
251.30319362604854
30
0
10
86.553422229382335
20
240.03807316663696
30
0
10
87.069322906358622
20
235.45874147555054
30
0
0
SPLINE
5
133
100
AcDbEntity
8
0
100
AcDbSpline
70
4
71
3
72
8
73
4
74
0
42
0.000000001
43
0.0000000001
44
0.0000000001
40
0
40
0
40
0
40
0
40
1
40
1
40
1
40
1
41
1
41
1
41
1
41
1
10
87.069322906358622
20
235.45874147555054
30
0
10
84.628736988931877
20
237.41977263082026
30
0
10
81.57445452604982
20
236.27614419476072
30
0
10
80.426008143142056
20
233.8259223836377
30
0
0
SPLINE
5
134
100
AcDbEntity
8
0
100
AcDbSpline
70
4
71
3
72
8
73
4
74
0
42
0.000000001
43
0.0000000001
44
0.0000000001
40
3.0428118382582441e-06
40
3.0428118382582441e-06
40
3.0428118382582441e-06
40
3.0428118382582441e-06
40
1
40
1
40
1
40
1
41
1
41
1
41
1
41
1
10
80.426005060588267
20
233.82592382846514
30
0
10
80.088311043379235
20
238.61396699193074
30
0
10
77.098732695342662
20
241.85862006588343
30
0
10
71.097871367451148
20
240.85002399862421
30
0
0
SPLINE
5
135
100
AcDbEntity
8
0
100
AcDbSpline
70
4
71
3
72
8
73
4
74
0
42
0.000000001
43
0.0000000001
44
0.0000000001
40
0
40
0
40
0
40
0
40
1
40
1
40
1
40
1
41
1
41
1
41
1
41
1
10
71.097871367451148
20
240.85002399862421
30
0
10
75.998864404688717
20
244.51394578856321
30
0
10
72.635388089692356
20
252.63413031150264
30
0
10
67.871917851085172
20
250.11899300600462
30
0
0
SPLINE
5
136
100
AcDbEntity
8
0
100
AcDbSpline
70
4
71
3
72
8
73
4
74
0
42
0.000000001
43
0.0000000001
44
0.0000000001
40
0
40
0
40
0
40
0
40
1
40
1
40
1
40
1
41
1
41
1
41
1
41
1
10
67.871917851085172
20
250.11899300600462
30
0
10
69.379681638404534
20
246.57666097994382
30
0
10
65.418230499246803
20
244.85344199059082
30
0
10
62.939650422026325
20
249.22167153688352
30
0
0
SPLINE
5
137
100
AcDbEntity
8
0
100
AcDbSpline
70
4
71
3
72
8
73
4
74
0
42
0.000000001
43
0.0000000001
44
0.0000000001
40
-1
40
-1
40
-1
40
-1
40
0
40
0
40
0
40
0
41
1
41
1
41
1
41
1
10
69.050793371981172
20
216.02225637361087
30
0
10
68.375858186324436
20
216.19033509830444
30
0
10
67.964938035407712
20
216.87372282229126
30
0
10
68.133016760101299
20
217.54865800794803
30
0
0
SPLINE
5
138
100
AcDbEntity
8
0
100
AcDbSpline
70
4
71
3
72
8
73
4
74
0
42
0.000000001
43
0.0000000001
44
0.0000000001
40
-1
40
-1
40
-1
40
-1
40
0
40
0
40
0
40
0
41
1
41
1
41
1
41
1
10
68.133016760101299
20
217.54865800794803
30
0
10
68.301053222103235
20
218.2235931936047
30
0
10
68.984483208781725
20
218.63451334452148
30
0
10
69.659418394438461
20
218.46643461982785
30
0
0
SPLINE
5
139
100
AcDbEntity
8
0
100
AcDbSpline
70
4
71
3
72
8
73
4
74
0
42
0.000000001
43
0.0000000001
44
0.0000000001
40
-1
40
-1
40
-1
40
-1
40
0
40
0
40
0
40
0
41
1
41
1
41
1
41
1
10
69.659418394438461
20
218.46643461982785
30
0
10
71.977527031462373
20
217.67476987983272
30
0
10
74.028704508022429
20
216.98199983829952
30
0
10
78.151472341209725
20
215.44794865677369
30
0
0
SPLINE
5
140
100
AcDbEntity
8
0
100
AcDbSpline
70
4
71
3
72
8
73
4
74
0
42
0.000000001
43
0.0000000001
44
0.0000000001
40
-1
40
-1
40
-1
40
-1
40
0
40
0
40
0
40
0
41
1
41
1
41
1
41
1
10
78.151472341209725
20
215.44794865677369
30
0
10
74.011123228295887
20
215.61222373921873
30
0
10
71.083882416514896
20
215.7557901027551
30
0
10
69.050793371981172
20
216.02225637361087
30
0
0
SPLINE
5
141
100
AcDbEntity
8
0
100
AcDbSpline
70
4
71
3
72
8
73
4
74
0
42
0.000000001
43
0.0000000001
44
0.0000000001
40
-1
40
-1
40
-1
40
-1
40
-3.0428118353504495e-06
40
-3.0428118353504495e-06
40
-3.0428118353504495e-06
40
-3.0428118353504495e-06
41
1
41
1
41
1
41
1
10
71.097871367451148
20
183.81631030296381
30
0
10
77.09873269534269
20
182.80771423570462
30
0
10
80.088311043379235
20
186.05236730965737
30
0
10
80.426005060588267
20
190.84041047312294
30
0
0
SPLINE
5
142
100
AcDbEntity
8
0
100
AcDbSpline
70
4
71
3
72
8
73
4
74
0
42
0.000000001
43
0.0000000001
44
0.0000000001
40
-1
40
-1
40
-1
40
-1
40
0
40
0
40
0
40
0
41
1
41
1
41
1
41
1
10
80.426008143142056
20
190.84041191795041
30
0
10
81.57445452604982
20
188.39019010682739
30
0
10
84.628736988931877
20
187.24656167076779
30
0
10
87.069322906358622
20
189.20759282603754
30
0
0
SPLINE
5
143
100
AcDbEntity
8
0
100
AcDbSpline
70
4
71
3
72
8
73
4
74
0
42
0.000000001
43
0.0000000001
44
0.0000000001
40
-1
40
-1
40
-1
40
-1
40
0
40
0
40
0
40
0
41
1
41
1
41
1
41
1
10
87.069322906358622
20
189.20759282603754
30
0
10
86.553422229382335
20
184.62826113495112
30
0
10
83.656652818281231
20
173.36314067553957
30
0
10
74.843529203041982
20
168.51028484409176
30
0
0
SPLINE
5
144
100
AcDbEntity
8
0
100
AcDbSpline
70
4
71
3
72
8
73
4
74
0
42
0.000000001
43
0.0000000001
44
0.0000000001
40
-1
40
-1
40
-1
40
-1
40
0
40
0
40
0
40
0
41
1
41
1
41
1
41
1
10
74.843529203041982
20
168.51028484409176
30
0
10
68.768732167906478
20
165.60138604048706
30
0
10
60.621076895394303
20
170.11516829682367
30
0
10
62.939650422026325
20
175.44466276470459
30
0
0
SPLINE
5
145
100
AcDbEntity
8
0
100
AcDbSpline
70
4
71
3
72
8
73
4
74
0
42
0.000000001
43
0.0000000001
44
0.0000000001
40
-1
40
-1
40
-1
40
-1
40
0
40
0
40
0
40
0
41
1
41
1
41
1
41
1
10
62.939650422026325
20
175.44466276470459
30
0
10
65.418230499246803
20
179.81289231099731
30
0
10
69.379681638404534
20
178.08967332164428
30
0
10
67.871917851085172
20
174.54734129558346
30
0
0
SPLINE
5
146
100
AcDbEntity
8
0
100
AcDbSpline
70
4
71
3
72
8
73
4
74
0
42
0.000000001
43
0.0000000001
44
0.0000000001
40
-1
40
-1
40
-1
40
-1
40
0
40
0
40
0
40
0
41
1
41
1
41
1
41
1
10
67.871917851085172
20
174.54734129558346
30
0
10
72.635388089692356
20
172.03220399008541
30
0
10
75.998864404688717
20
180.1523885130249
30
0
10
71.097871367451148
20
183.81631030296381
30
0
0
SPLINE
5
147
100
AcDbEntity
8
0
100
AcDbSpline
70
4
71
3
72
8
73
4
74
0
42
0.000000001
43
0.0000000001
44
0.0000000001
40
-1
40
-1
40
-1
40
-1
40
0
40
0
40
0
40
0
41
1
41
1
41
1
41
1
10
114.54408743481933
20
187.11761819854246
30
0
10
107.70179991931273
20
189.91430955581538
30
0
10
106.52634767644042
20
185.29364495229487
30
0
10
100.35350119667598
20
192.18208332708375
30
0
0
SPLINE
5
148
100
AcDbEntity
8
0
100
AcDbSpline
70
4
71
3
72
8
73
4
74
0
42
0.000000001
43
0.0000000001
44
0.0000000001
40
-1
40
-1
40
-1
40
-1
40
0
40
0
40
0
40
0
41
1
41
1
41
1
41
1
10
100.35350119667598
20
192.18208332708375
30
0
10
103.45435714575683
20
191.06199521027344
30
0
10
106.40484243794555
20
194.17210668882569
30
0
10
104.80642517703616
20
196.85528045632563
30
0
0
SPLINE
5
149
100
AcDbEntity
8
0
100
AcDbSpline
70
4
71
3
72
8
73
4
74
0
42
0.000000001
43
0.0000000001
44
0.0000000001
40
-1
40
-1
40
-1
40
-1
40
0
40
0
40
0
40
0
41
1
41
1
41
1
41
1
10
104.80642517703616
20
196.85528045632563
30
0
10
107.48959894453611
20
195.25686319541623
30
0
10
110.59971042308834
20
198.20730622491328
30
0
10
109.47962230627803
20
201.3082044366858
30
0
0
SPLINE
5
150
100
AcDbEntity
8
0
100
AcDbSpline
70
4
71
3
72
8
73
4
74
0
42
0.000000001
43
0.0000000001
44
0.0000000001
40
-1
40
-1
40
-1
40
-1
40
0
40
0
40
0
40
0
41
1
41
1
41
1
41
1
10
109.47962230627803
20
201.3082044366858
30
0
10
116.36810294375856
20
195.13535795692135
30
0
10
111.7473960775464
20
193.95994797674069
30
0
10
114.54408743481933
20
187.11761819854246
30
0
0
SPLINE
5
151
100
AcDbEntity
8
0
100
AcDbSpline
70
4
71
3
72
8
73
4
74
0
42
0.000000001
43
0.0000000001
44
0.0000000001
40
0
40
0
40
0
40
0
40
1
40
1
40
1
40
1
41
1
41
1
41
1
41
1
10
157.22124930222535
20
212.33318828213987
30
0
10
155.74340750059449
20
208.48973457807006
30
0
10
149.60103242151004
20
204.99693442662348
30
0
10
144.93235740027461
20
205.2221523104285
30
0
0
SPLINE
5
152
100
AcDbEntity
8
0
100
AcDbSpline
70
4
71
3
72
8
73
4
74
0
42
0.000000001
43
0.0000000001
44
0.0000000001
40
0
40
0
40
0
40
0
40
1
40
1
40
1
40
1
41
1
41
1
41
1
41
1
10
144.93235740027461
20
205.2221523104285
30
0
10
138.05972527216306
20
205.40037408111814
30
0
10
133.48685977289915
20
209.86213096403318
30
0
10
126.50248508806392
20
212.33318828213987
30
0
0
SPLINE
5
153
100
AcDbEntity
8
0
100
AcDbSpline
70
4
71
3
72
8
73
4
74
0
42
0.000000001
43
0.0000000001
44
0.0000000001
40
0
40
0
40
0
40
0
40
0.99999795275309478
40
0.99999795275309478
40
0.99999795275309478
40
0.99999795275309478
41
1
41
1
41
1
41
1
10
126.50248508806392
20
212.33318828213987
30
0
10
133.48684547415968
20
214.80424054138206
30
0
10
138.05974881110211
20
219.265984214534
30
0
10
144.93235745307064
20
219.44422315920551
30
0
0
LINE
5
154
100
AcDbEntity
8
0
100
AcDbLine
10
144.93235745307064
20
219.44422315920551
30
0
11
144.9323996026053
21
219.44422527033038
31
0
0
SPLINE
5
155
100
AcDbEntity
8
0
100
AcDbSpline
70
4
71
3
72
8
73
4
74
0
42
0.000000001
43
0.0000000001
44
0.0000000001
40
3.009652448643117e-06
40
3.009652448643117e-06
40
3.009652448643117e-06
40
3.009652448643117e-06
40
1
40
1
40
1
40
1
41
1
41
1
41
1
41
1
10
144.93239955358229
20
219.44422628685132
30
0
10
149.60106939455056
20
219.66937885073239
30
0
10
155.7434542109491
20
216.17658815618537
30
0
10
157.22124930222535
20
212.33318828213987
30
0
0
SPLINE
5
156
100
AcDbEntity
8
0
100
AcDbSpline
70
4
71
3
72
8
73
4
74
0
42
0.000000001
43
0.0000000001
44
0.0000000001
40
-1
40
-1
40
-1
40
-1
40
0
40
0
40
0
40
0
41
1
41
1
41
1
41
1
10
100.16183989004146
20
229.72568056510005
30
0
10
100.55936276770504
20
230.29643821583858
30
0
10
101.34430773972774
20
230.43687714019285
30
0
10
101.91506539046631
20
230.03935426252926
30
0
0
SPLINE
5
157
100
AcDbEntity
8
0
100
AcDbSpline
70
4
71
3
72
8
73
4
74
0
42
0.000000001
43
0.0000000001
44
0.0000000001
40
-1
40
-1
40
-1
40
-1
40
0
40
0
40
0
40
0
41
1
41
1
41
1
41
1
10
101.91506539046631
20
230.03935426252926
30
0
10
102.48582304120482
20
229.64183138486567
30
0
10
102.62626196555907
20
228.85688641284298
30
0
10
102.22873908789551
20
228.28612876210451
30
0
0
SPLINE
5
158
100
AcDbEntity
8
0
100
AcDbSpline
70
4
71
3
72
8
73
4
74
0
42
0.000000001
43
0.0000000001
44
0.0000000001
40
-1
40
-1
40
-1
40
-1
40
0
40
0
40
0
40
0
41
1
41
1
41
1
41
1
10
102.22873908789551
20
228.28612876210451
30
0
10
100.66307541301509
20
226.4022270190967
30
0
10
99.284889038295873
20
224.73251259737305
30
0
10
96.382540951896999
20
221.42693616993773
30
0
0
SPLINE
5
159
100
AcDbEntity
8
0
100
AcDbSpline
70
4
71
3
72
8
73
4
74
0
42
0.000000001
43
0.0000000001
44
0.0000000001
40
-1
40
-1
40
-1
40
-1
40
0
40
0
40
0
40
0
41
1
41
1
41
1
41
1
10
96.382540951896999
20
221.42693616993773
30
0
10
98.011260562719684
20
225.23700234760378
30
0
10
99.188445575949729
20
227.92093684355342
30
0
10
100.16183989004146
20
229.72568056510005
30
0
0
SPLINE
5
160
100
AcDbEntity
8
0
100
AcDbSpline
70
4
71
3
72
8
73
4
74
0
42
0.000000001
43
0.0000000001
44
0.0000000001
40
0
40
0
40
0
40
0
40
1
40
1
40
1
40
1
41
1
41
1
41
1
41
1
10
109.60636811853755
20
216.02225637361087
30
0
10
107.57327907400392
20
215.7557901027551
30
0
10
104.6460382622229
20
215.61222373921873
30
0
10
100.50568914930908
20
215.44794865677369
30
0
0
SPLINE
5
161
100
AcDbEntity
8
0
100
AcDbSpline
70
4
71
3
72
8
73
4
74
0
42
0.000000001
43
0.0000000001
44
0.0000000001
40
0
40
0
40
0
40
0
40
1
40
1
40
1
40
1
41
1
41
1
41
1
41
1
10
100.50568914930908
20
215.44794865677369
30
0
10
104.6284569824963
20
216.98199983829952
30
0
10
106.67963445905636
20
217.67476987983272
30
0
10
108.99774309608033
20
218.46643461982785
30
0
0
SPLINE
5
162
100
AcDbEntity
8
0
100
AcDbSpline
70
4
71
3
72
8
73
4
74
0
42
0.000000001
43
0.0000000001
44
0.0000000001
40
0
40
0
40
0
40
0
40
1
40
1
40
1
40
1
41
1
41
1
41
1
41
1
10
108.99774309608033
20
218.46643461982785
30
0
10
109.67267828173706
20
218.63451334452148
30
0
10
110.3561082684155
20
218.2235931936047
30
0
10
110.5241447304175
20
217.54865800794803
30
0
0
SPLINE
5
163
100
AcDbEntity
8
0
100
AcDbSpline
70
4
71
3
72
8
73
4
74
0
42
0.000000001
43
0.0000000001
44
0.0000000001
40
0
40
0
40
0
40
0
40
1
40
1
40
1
40
1
41
1
41
1
41
1
41
1
10
110.5241447304175
20
217.54865800794803
30
0
10
110.69222345511109
20
216.87372282229126
30
0
10
110.2813033041943
20
216.19033509830444
30
0
10
109.60636811853755
20
216.02225637361087
30
0
0
SPLINE
5
164
100
AcDbEntity
8
0
100
AcDbSpline
70
4
71
3
72
8
73
4
74
0
42
0.000000001
43
0.0000000001
44
0.0000000001
40
-1
40
-1
40
-1
40
-1
40
-3.0428118399988379e-06
40
-3.0428118399988379e-06
40
-3.0428118399988379e-06
40
-3.0428118399988379e-06
41
1
41
1
41
1
41
1
10
117.84543759308957
20
194.10245777298582
30
0
10
118.85403366034873
20
200.10331910087729
30
0
10
115.6093805863961
20
203.09289744891385
30
0
10
110.82133742293051
20
203.43059146612293
30
0
0
SPLINE
5
165
100
AcDbEntity
8
0
100
AcDbSpline
70
4
71
3
72
8
73
4
74
0
42
0.000000001
43
0.0000000001
44
0.0000000001
40
-1
40
-1
40
-1
40
-1
40
0
40
0
40
0
40
0
41
1
41
1
41
1
41
1
10
110.82133597810305
20
203.43059454867671
30
0
10
113.27155778922605
20
204.57904093158447
30
0
10
114.41518622528562
20
207.63332339446652
30
0
10
112.45415507001589
20
210.07390931189326
30
0
0
SPLINE
5
166
100
AcDbEntity
8
0
100
AcDbSpline
70
4
71
3
72
8
73
4
74
0
42
0.000000001
43
0.0000000001
44
0.0000000001
40
-1
40
-1
40
-1
40
-1
40
0
40
0
40
0
40
0
41
1
41
1
41
1
41
1
10
112.45415507001589
20
210.07390931189326
30
0
10
117.03348676110231
20
209.55800863491697
30
0
10
128.2986072205139
20
206.66123922381587
30
0
10
133.15146305196168
20
197.84811560857662
30
0
0
SPLINE
5
167
100
AcDbEntity
8
0
100
AcDbSpline
70
4
71
3
72
8
73
4
74
0
42
0.000000001
43
0.0000000001
44
0.0000000001
40
-1
40
-1
40
-1
40
-1
40
0
40
0
40
0
40
0
41
1
41
1
41
1
41
1
10
133.15146305196168
20
197.84811560857662
30
0
10
136.06036185556638
20
191.77331857344114
30
0
10
131.54657959922969
20
183.62566330092898
30
0
10
126.21708513134888
20
185.94423682756099
30
0
0
SPLINE
5
168
100
AcDbEntity
8
0
100
AcDbSpline
70
4
71
3
72
8
73
4
74
0
42
0.000000001
43
0.0000000001
44
0.0000000001
40
-1
40
-1
40
-1
40
-1
40
0
40
0
40
0
40
0
41
1
41
1
41
1
41
1
10
126.21708513134888
20
185.94423682756099
30
0
10
121.84885558505616
20
188.42281690478146
30
0
10
123.57207457440919
20
192.38426804393919
30
0
10
127.11440660046996
20
190.87650425661985
30
0
0
SPLINE
5
169
100
AcDbEntity
8
0
100
AcDbSpline
70
4
71
3
72
8
73
4
74
0
42
0.000000001
43
0.0000000001
44
0.0000000001
40
-1
40
-1
40
-1
40
-1
40
0
40
0
40
0
40
0
41
1
41
1
41
1
41
1
10
127.11440660046996
20
190.87650425661985
30
0
10
129.62954390596798
20
195.63997449522702
30
0
10
121.50935938302854
20
199.00345081022337
30
0
10
117.84543759308957
20
194.10245777298582
30
0
0
SPLINE
5
170
100
AcDbEntity
8
0
100
AcDbSpline
70
4
71
3
72
8
73
4
74
0
42
0.000000001
43
0.0000000001
44
0.0000000001
40
-1
40
-1
40
-1
40
-1
40
0
40
0
40
0
40
0
41
1
41
1
41
1
41
1
10
78.495321600477268
20
195.59910647240116
30
0
10
78.097798722813693
20
195.02834882166255
30
0
10
77.312853750790978
20
194.8879098973083
30
0
10
76.742096100052478
20
195.28543277497189
30
0
0
SPLINE
5
171
100
AcDbEntity
8
0
100
AcDbSpline
70
4
71
3
72
8
73
4
74
0
42
0.000000001
43
0.0000000001
44
0.0000000001
40
-1
40
-1
40
-1
40
-1
40
0
40
0
40
0
40
0
41
1
41
1
41
1
41
1
10
76.742096100052478
20
195.28543277497189
30
0
10
76.171338449313993
20
195.68295565263548
30
0
10
76.030899524959722
20
196.46790062465817
30
0
10
76.428422402623312
20
197.03865827539664
30
0
0
SPLINE
5
172
100
AcDbEntity
8
0
100
AcDbSpline
70
4
71
3
72
8
73
4
74
0
42
0.000000001
43
0.0000000001
44
0.0000000001
40
-1
40
-1
40
-1
40
-1
40
0
40
0
40
0
40
0
41
1
41
1
41
1
41
1
10
76.428422402623312
20
197.03865827539664
30
0
10
77.994086077503638
20
198.92256001840451
30
0
10
79.372272452222859
20
200.59227444012819
30
0
10
82.274620538621818
20
203.89785086756348
30
0
0
SPLINE
5
173
100
AcDbEntity
8
0
100
AcDbSpline
70
4
71
3
72
8
73
4
74
0
42
0.000000001
43
0.0000000001
44
0.0000000001
40
-1
40
-1
40
-1
40
-1
40
0
40
0
40
0
40
0
41
1
41
1
41
1
41
1
10
82.274620538621818
20
203.89785086756348
30
0
10
80.645900927799033
20
200.08778468989746
30
0
10
79.468715914569088
20
197.40385019394773
30
0
10
78.495321600477268
20
195.59910647240116
30
0
0
SPLINE
5
174
100
AcDbEntity
8
0
100
AcDbSpline
70
4
71
3
72
8
73
4
74
0
42
0.000000001
43
0.0000000001
44
0.0000000001
40
-1
40
-1
40
-1
40
-1
40
0
40
0
40
0
40
0
41
1
41
1
41
1
41
1
10
85.678457724144238
20
192.49837731139522
30
0
10
85.500827631137653
20
191.82589336185424
30
0
10
84.811692181086386
20
191.42469363001706
30
0
10
84.139208231545396
20
191.60232372302363
30
0
0
SPLINE
5
175
100
AcDbEntity
8
0
100
AcDbSpline
70
4
71
3
72
8
73
4
74
0
42
0.000000001
43
0.0000000001
44
0.0000000001
40
-1
40
-1
40
-1
40
-1
40
0
40
0
40
0
40
0
41
1
41
1
41
1
41
1
10
84.139208231545396
20
191.60232372302363
30
0
10
83.466682019312771
20
191.77991155333865
30
0
10
83.065524550167225
20
192.46908926608148
30
0
10
83.24315464317381
20
193.14157321562254
30
0
0
SPLINE
5
176
100
AcDbEntity
8
0
100
AcDbSpline
70
4
71
3
72
8
73
4
74
0
42
0.000000001
43
0.0000000001
44
0.0000000001
40
-1
40
-1
40
-1
40
-1
40
0
40
0
40
0
40
0
41
1
41
1
41
1
41
1
10
83.24315464317381
20
193.14157321562254
30
0
10
84.067615231889619
20
195.44822866320919
30
0
10
84.789419742586631
20
197.48938988184813
30
0
10
86.381793438590051
20
201.5899698019189
30
0
0
SPLINE
5
177
100
AcDbEntity
8
0
100
AcDbSpline
70
4
71
3
72
8
73
4
74
0
42
0.000000001
43
0.0000000001
44
0.0000000001
40
-1
40
-1
40
-1
40
-1
40
0
40
0
40
0
40
0
41
1
41
1
41
1
41
1
10
86.381793438590051
20
201.5899698019189
30
0
10
86.158815477442644
20
197.45241002665404
30
0
10
85.973704888013884
20
194.5274936629138
30
0
10
85.678457724144238
20
192.49837731139522
30
0
0
SPLINE
5
178
100
AcDbEntity
8
0
100
AcDbSpline
70
4
71
3
72
8
73
4
74
0
42
0.000000001
43
0.0000000001
44
0.0000000001
40
-1
40
-1
40
-1
40
-1
40
0
40
0
40
0
40
0
41
1
41
1
41
1
41
1
10
64.113074055699485
20
237.54871610304562
30
0
10
70.955361571206069
20
234.75202474577273
30
0
10
72.13081381407838
20
239.37268934929321
30
0
10
78.303660293842739
20
232.48425097450436
30
0
0
SPLINE
5
179
100
AcDbEntity
8
0
100
AcDbSpline
70
4
71
3
72
8
73
4
74
0
42
0.000000001
43
0.0000000001
44
0.0000000001
40
-1
40
-1
40
-1
40
-1
40
0
40
0
40
0
40
0
41
1
41
1
41
1
41
1
10
78.303660293842739
20
232.48425097450436
30
0
10
75.202804344761972
20
233.60433909131467
30
0
10
72.252319052573242
20
230.49422761276242
30
0
10
73.850736313482642
20
227.81105384526242
30
0
0
SPLINE
5
180
100
AcDbEntity
8
0
100
AcDbSpline
70
4
71
3
72
8
73
4
74
0
42
0.000000001
43
0.0000000001
44
0.0000000001
40
-1
40
-1
40
-1
40
-1
40
0
40
0
40
0
40
0
41
1
41
1
41
1
41
1
10
73.850736313482642
20
227.81105384526242
30
0
10
71.167562545982634
20
229.40947110617188
30
0
10
68.057451067430378
20
226.45902807667483
30
0
10
69.1775391842407
20
223.35812986490231
30
0
0
SPLINE
5
181
100
AcDbEntity
8
0
100
AcDbSpline
70
4
71
3
72
8
73
4
74
0
42
0.000000001
43
0.0000000001
44
0.0000000001
40
-1
40
-1
40
-1
40
-1
40
0
40
0
40
0
40
0
41
1
41
1
41
1
41
1
10
69.1775391842407
20
223.35812986490231
30
0
10
62.289058546760231
20
229.53097634466673
30
0
10
66.909765412972405
20
230.70638632484736
30
0
10
64.113074055699485
20
237.54871610304562
30
0
0
SPLINE
5
182
100
AcDbEntity
8
0
100
AcDbSpline
70
4
71
3
72
8
73
4
74
0
42
0.000000001
43
0.0000000001
44
0.0000000001
40
0
40
0
40
0
40
0
40
1
40
1
40
1
40
1
41
1
41
1
41
1
41
1
10
89.328559613913555
20
280.22583570775998
30
0
10
93.172013317983385
20
278.74799390612912
30
0
10
96.664813469429888
20
272.60561882704468
30
0
10
96.439595585624986
20
267.93694380580934
30
0
0
SPLINE
5
183
100
AcDbEntity
8
0
100
AcDbSpline
70
4
71
3
72
8
73
4
74
0
42
0.000000001
43
0.0000000001
44
0.0000000001
40
0
40
0
40
0
40
0
40
1
40
1
40
1
40
1
41
1
41
1
41
1
41
1
10
96.439595585624986
20
267.93694380580934
30
0
10
96.26137381493524
20
261.06431167769767
30
0
10
91.799616932020299
20
256.49144617843382
30
0
10
89.328559613913555
20
249.50707149359863
30
0
0
SPLINE
5
184
100
AcDbEntity
8
0
100
AcDbSpline
70
4
71
3
72
8
73
4
74
0
42
0.000000001
43
0.0000000001
44
0.0000000001
40
0
40
0
40
0
40
0
40
0.99999795275310011
40
0.99999795275310011
40
0.99999795275310011
40
0.99999795275310011
41
1
41
1
41
1
41
1
10
89.328559613913555
20
249.50707149359863
30
0
10
86.85750735467127
20
256.49143187969435
30
0
10
82.395763681519355
20
261.06433521663683
30
0
10
82.217524736847935
20
267.93694385860539
30
0
0
LINE
5
185
100
AcDbEntity
8
0
100
AcDbLine
10
82.217524736847906
20
267.93694385860539
30
0
11
82.217522625723021
21
267.93698600814002
31
0
0
SPLINE
5
186
100
AcDbEntity
8
0
100
AcDbSpline
70
4
71
3
72
8
73
4
74
0
42
0.000000001
43
0.0000000001
44
0.0000000001
40
3.0096524487652198e-06
40
3.0096524487652198e-06
40
3.0096524487652198e-06
40
3.0096524487652198e-06
40
1
40
1
40
1
40
1
41
1
41
1
41
1
41
1
10
82.217521609202109
20
267.93698595911695
30
0
10
81.99236904532107
20
272.60565580008523
30
0
10
85.485159739868081
20
278.74804061648382
30
0
10
89.328559613913555
20
280.22583570775998
30
0
0
SPLINE
5
187
100
AcDbEntity
8
0
100
AcDbSpline
70
4
71
3
72
8
73
4
74
0
42
0.000000001
43
0.0000000001
44
0.0000000001
40
-1
40
-1
40
-1
40
-1
40
0
40
0
40
0
40
0
41
1
41
1
41
1
41
1
10
52.154718665146476
20
212.33314601944818
30
0
10
45.170301717619587
20
209.86208870134149
30
0
10
40.597436218355668
20
205.40033181842645
30
0
10
33.72480409024412
20
205.22211004773681
30
0
0
SPLINE
5
188
100
AcDbEntity
8
0
100
AcDbSpline
70
4
71
3
72
8
73
4
74
0
42
0.000000001
43
0.0000000001
44
0.0000000001
40
-1
40
-1
40
-1
40
-1
40
-0.13212983856500135
40
-0.13212983856500135
40
-0.13212983856500135
40
-0.13212983856500135
41
1
41
1
41
1
41
1
10
33.72480409024412
20
205.22211004773681
30
0
10
29.673000345877053
20
205.02665016656093
30
0
10
24.511207755904266
20
207.6315963279236
30
0
10
22.251858126708569
20
210.83577441286877
30
0
0
SPLINE
5
189
100
AcDbEntity
8
0
100
AcDbSpline
70
4
71
3
72
8
73
4
74
0
42
0.000000001
43
0.0000000001
44
0.0000000001
40
-0.13212983856494545
40
-0.13212983856494545
40
-0.13212983856494545
40
-0.13212983856494545
40
0
40
0
40
0
40
0
41
1
41
1
41
1
41
1
10
22.251858126708136
20
210.83577441286948
30
0
10
21.907880980087793
20
211.32359799744478
30
0
10
21.631179186967458
20
211.82531110199761
30
0
10
21.435912188293447
20
212.33314601944818
30
0
0
SPLINE
5
190
100
AcDbEntity
8
0
100
AcDbSpline
70
4
71
3
72
8
73
4
74
0
42
0.000000001
43
0.0000000001
44
0.0000000001
40
-1
40
-1
40
-1
40
-1
40
0
40
0
40
0
40
0
41
1
41
1
41
1
41
1
10
21.435912188293447
20
212.33314601944818
30
0
10
22.913711727232638
20
216.17655746082636
30
0
10
29.056129069008772
20
219.66935761227293
30
0
10
33.72480409024412
20
219.44418199115961
30
0
0
SPLINE
5
191
100
AcDbEntity
8
0
100
AcDbSpline
70
4
71
3
72
8
73
4
74
0
42
0.000000001
43
0.0000000001
44
0.0000000001
40
-1
40
-1
40
-1
40
-1
40
0
40
0
40
0
40
0
41
1
41
1
41
1
41
1
10
33.72480409024412
20
219.44418199115961
30
0
10
40.597436218355668
20
219.26596022046996
30
0
10
45.170343980311252
20
214.80420333755492
30
0
10
52.154718665146476
20
212.33314601944818
30
0
0
SPLINE
5
192
100
AcDbEntity
8
0
100
AcDbSpline
70
4
71
3
72
8
73
4
74
0
42
0.000000001
43
0.0000000001
44
0.0000000001
40
0
40
0
40
0
40
0
40
1
40
1
40
1
40
1
41
1
41
1
41
1
41
1
10
126.21708513134888
20
238.72209747402707
30
0
10
131.54657959922969
20
241.04067100065916
30
0
10
136.06036185556638
20
232.89301572814696
30
0
10
133.15146305196168
20
226.81821869301146
30
0
0
SPLINE
5
193
100
AcDbEntity
8
0
100
AcDbSpline
70
4
71
3
72
8
73
4
74
0
42
0.000000001
43
0.0000000001
44
0.0000000001
40
0
40
0
40
0
40
0
40
1
40
1
40
1
40
1
41
1
41
1
41
1
41
1
10
133.15146305196168
20
226.81821869301146
30
0
10
128.2986072205139
20
218.00509507777221
30
0
10
117.03348676110231
20
215.10832566667113
30
0
10
112.45415507001589
20
214.59242498969485
30
0
0
SPLINE
5
194
100
AcDbEntity
8
0
100
AcDbSpline
70
4
71
3
72
8
73
4
74
0
42
0.000000001
43
0.0000000001
44
0.0000000001
40
0
40
0
40
0
40
0
40
1
40
1
40
1
40
1
41
1
41
1
41
1
41
1
10
112.45415507001589
20
214.59242498969485
30
0
10
114.41518622528562
20
217.03301090712159
30
0
10
113.27155778922605
20
220.08729337000361
30
0
10
110.82133597810305
20
221.23573975291134
30
0
0
SPLINE
5
195
100
AcDbEntity
8
0
100
AcDbSpline
70
4
71
3
72
8
73
4
74
0
42
0.000000001
43
0.0000000001
44
0.0000000001
40
3.0428118364820372e-06
40
3.0428118364820372e-06
40
3.0428118364820372e-06
40
3.0428118364820372e-06
40
1
40
1
40
1
40
1
41
1
41
1
41
1
41
1
10
110.82133742293047
20
221.23574283546506
30
0
10
115.60938058639609
20
221.57343685267423
30
0
10
118.85403366034876
20
224.56301520071077
30
0
10
117.84543759308957
20
230.56387652860229
30
0
0
SPLINE
5
196
100
AcDbEntity
8
0
100
AcDbSpline
70
4
71
3
72
8
73
4
74
0
42
0.000000001
43
0.0000000001
44
0.0000000001
40
0
40
0
40
0
40
0
40
1
40
1
40
1
40
1
41
1
41
1
41
1
41
1
10
117.84543759308957
20
230.56387652860229
30
0
10
121.50935938302854
20
225.66288349136474
30
0
10
129.62954390596798
20
229.02635980636109
30
0
10
127.11440660046996
20
233.7898300449682
30
0
0
SPLINE
5
197
100
AcDbEntity
8
0
100
AcDbSpline
70
4
71
3
72
8
73
4
74
0
42
0.000000001
43
0.0000000001
44
0.0000000001
40
0
40
0
40
0
40
0
40
1
40
1
40
1
40
1
41
1
41
1
41
1
41
1
10
127.11440660046996
20
233.7898300449682
30
0
10
123.57207457440919
20
232.28206625764892
30
0
10
121.84885558505616
20
236.24351739680662
30
0
10
126.21708513134888
20
238.72209747402707
30
0
0
SPLINE
5
198
100
AcDbEntity
8
0
100
AcDbSpline
70
4
71
3
72
8
73
4
74
0
42
0.000000001
43
0.0000000001
44
0.0000000001
40
0
40
0
40
0
40
0
40
1
40
1
40
1
40
1
41
1
41
1
41
1
41
1
10
85.678457724144238
20
232.82640972610594
30
0
10
85.973704888013884
20
230.79729337458735
30
0
10
86.158815477442644
20
227.87237701084712
30
0
10
86.381793438590051
20
223.73481723558226
30
0
0
SPLINE
5
199
100
AcDbEntity
8
0
100
AcDbSpline
70
4
71
3
72
8
73
4
74
0
42
0.000000001
43
0.0000000001
44
0.0000000001
40
0
40
0
40
0
40
0
40
1
40
1
40
1
40
1
41
1
41
1
41
1
41
1
10
86.381793438590051
20
223.73481723558226
30
0
10
84.789419742586631
20
227.83539715565303
30
0
10
84.067615231889619
20
229.87655837429199
30
0
10
83.24315464317381
20
232.18321382187867
30
0
0
SPLINE
5
200
100
AcDbEntity
8
0
100
AcDbSpline
70
4
71
3
72
8
73
4
74
0
42
0.000000001
43
0.0000000001
44
0.0000000001
40
0
40
0
40
0
40
0
40
1
40
1
40
1
40
1
41
1
41
1
41
1
41
1
10
83.24315464317381
20
232.18321382187867
30
0
10
83.065524550167225
20
232.85569777141967
30
0
10
83.466682019312771
20
233.54487548416259
30
0
10
84.139208231545396
20
233.72246331447752
30
0
0
SPLINE
5
201
100
AcDbEntity
8
0
100
AcDbSpline
70
4
71
3
72
8
73
4
74
0
42
0.000000001
43
0.0000000001
44
0.0000000001
40
0
40
0
40
0
40
0
40
1
40
1
40
1
40
1
41
1
41
1
41
1
41
1
10
84.139208231545396
20
233.72246331447752
30
0
10
84.811692181086386
20
233.90009340748409
30
0
10
85.500827631137653
20
233.49889367564697
30
0
10
85.678457724144238
20
232.82640972610594
30
0
0
SPLINE
5
202
100
AcDbEntity
8
0
100
AcDbSpline
70
4
71
3
72
8
73
4
74
0
42
0.000000001
43
0.0000000001
44
0.0000000001
40
0
40
0
40
0
40
0
40
1
40
1
40
1
40
1
41
1
41
1
41
1
41
1
10
114.54408743481933
20
237.54871610304562
30
0
10
111.7473960775464
20
230.70638632484736
30
0
10
116.36810294375856
20
229.53097634466673
30
0
10
109.47962230627803
20
223.35812986490231
30
0
0
SPLINE
5
203
100
AcDbEntity
8
0
100
AcDbSpline
70
4
71
3
72
8
73
4
74
0
42
0.000000001
43
0.0000000001
44
0.0000000001
40
0
40
0
40
0
40
0
40
1
40
1
40
1
40
1
41
1
41
1
41
1
41
1
10
109.47962230627803
20
223.35812986490231
30
0
10
110.59971042308834
20
226.45902807667483
30
0
10
107.48959894453611
20
229.40947110617188
30
0
10
104.80642517703616
20
227.81105384526242
30
0
0
SPLINE
5
204
100
AcDbEntity
8
0
100
AcDbSpline
70
4
71
3
72
8
73
4
74
0
42
0.000000001
43
0.0000000001
44
0.0000000001
40
0
40
0
40
0
40
0
40
1
40
1
40
1
40
1
41
1
41
1
41
1
41
1
10
104.80642517703616
20
227.81105384526242
30
0
10
106.40484243794555
20
230.49422761276242
30
0
10
103.45435714575683
20
233.60433909131467
30
0
10
100.35350119667598
20
232.48425097450436
30
0
0
SPLINE
5
205
100
AcDbEntity
8
0
100
AcDbSpline
70
4
71
3
72
8
73
4
74
0
42
0.000000001
43
0.0000000001
44
0.0000000001
40
0
40
0
40
0
40
0
40
1
40
1
40
1
40
1
41
1
41
1
41
1
41
1
10
100.35350119667598
20
232.48425097450436
30
0
10
106.52634767644042
20
239.37268934929321
30
0
10
107.70179991931273
20
234.75202474577273
30
0
10
114.54408743481933
20
237.54871610304562
30
0
0
SPLINE
5
206
100
AcDbEntity
8
0
100
AcDbSpline
70
4
71
3
72
8
73
4
74
0
42
0.000000001
43
0.0000000001
44
0.0000000001
40
0
40
0
40
0
40
0
40
1
40
1
40
1
40
1
41
1
41
1
41
1
41
1
10
64.113074055699485
20
187.11761819854246
30
0
10
66.909765412972405
20
193.95994797674069
30
0
10
62.289058546760231
20
195.13535795692135
30
0
10
69.1775391842407
20
201.3082044366858
30
0
0
SPLINE
5
207
100
AcDbEntity
8
0
100
AcDbSpline
70
4
71
3
72
8
73
4
74
0
42
0.000000001
43
0.0000000001
44
0.0000000001
40
0
40
0
40
0
40
0
40
1
40
1
40
1
40
1
41
1
41
1
41
1
41
1
10
69.1775391842407
20
201.3082044366858
30
0
10
68.057451067430378
20
198.20730622491328
30
0
10
71.167562545982634
20
195.25686319541623
30
0
10
73.850736313482642
20
196.85528045632563
30
0
0
SPLINE
5
208
100
AcDbEntity
8
0
100
AcDbSpline
70
4
71
3
72
8
73
4
74
0
42
0.000000001
43
0.0000000001
44
0.0000000001
40
0
40
0
40
0
40
0
40
1
40
1
40
1
40
1
41
1
41
1
41
1
41
1
10
73.850736313482642
20
196.85528045632563
30
0
10
72.252319052573242
20
194.17210668882569
30
0
10
75.202804344761972
20
191.06199521027344
30
0
10
78.303660293842739
20
192.18208332708375
30
0
0
SPLINE
5
209
100
AcDbEntity
8
0
100
AcDbSpline
70
4
71
3
72
8
73
4
74
0
42
0.000000001
43
0.0000000001
44
0.0000000001
40
0
40
0
40
0
40
0
40
1
40
1
40
1
40
1
41
1
41
1
41
1
41
1
10
78.303660293842739
20
192.18208332708375
30
0
10
72.13081381407838
20
185.29364495229487
30
0
10
70.955361571206069
20
189.91430955581538
30
0
10
64.113074055699485
20
187.11761819854246
30
0
0
SPLINE
5
210
100
AcDbEntity
8
0
100
AcDbSpline
70
4
71
3
72
8
73
4
74
0
42
0.000000001
43
0.0000000001
44
0.0000000001
40
0
40
0
40
0
40
0
40
1
40
1
40
1
40
1
41
1
41
1
41
1
41
1
10
115.7175110684924
20
175.44466276470459
30
0
10
118.03608459512449
20
170.11516829682367
30
0
10
109.88842932261232
20
165.60138604048706
30
0
10
103.81363228747682
20
168.51028484409176
30
0
0
SPLINE
5
211
100
AcDbEntity
8
0
100
AcDbSpline
70
4
71
3
72
8
73
4
74
0
42
0.000000001
43
0.0000000001
44
0.0000000001
40
0
40
0
40
0
40
0
40
1
40
1
40
1
40
1
41
1
41
1
41
1
41
1
10
103.81363228747682
20
168.51028484409176
30
0
10
95.000508672237558
20
173.36314067553957
30
0
10
92.103739261136468
20
184.62826113495112
30
0
10
91.587838584160124
20
189.20759282603754
30
0
0
SPLINE
5
212
100
AcDbEntity
8
0
100
AcDbSpline
70
4
71
3
72
8
73
4
74
0
42
0.000000001
43
0.0000000001
44
0.0000000001
40
0
40
0
40
0
40
0
40
1
40
1
40
1
40
1
41
1
41
1
41
1
41
1
10
91.587838584160124
20
189.20759282603754
30
0
10
94.02842450158694
20
187.24656167076779
30
0
10
97.082706964468969
20
188.39019010682739
30
0
10
98.231153347376676
20
190.84041191795041
30
0
0
SPLINE
5
213
100
AcDbEntity
8
0
100
AcDbSpline
70
4
71
3
72
8
73
4
74
0
42
0.000000001
43
0.0000000001
44
0.0000000001
40
3.0428118382874706e-06
40
3.0428118382874706e-06
40
3.0428118382874706e-06
40
3.0428118382874706e-06
40
1
40
1
40
1
40
1
41
1
41
1
41
1
41
1
10
98.231156429930479
20
190.84041047312297
30
0
10
98.568850447139596
20
186.0523673096574
30
0
10
101.55842879517607
20
182.80771423570462
30
0
10
107.55929012306764
20
183.81631030296381
30
0
0
SPLINE
5
214
100
AcDbEntity
8
0
100
AcDbSpline
70
4
71
3
72
8
73
4
74
0
42
0.000000001
43
0.0000000001
44
0.0000000001
40
0
40
0
40
0
40
0
40
1
40
1
40
1
40
1
41
1
41
1
41
1
41
1
10
107.55929012306764
20
183.81631030296381
30
0
10
102.6582970858301
20
180.1523885130249
30
0
10
106.02177340082645
20
172.03220399008541
30
0
10
110.78524363943356
20
174.54734129558346
30
0
0
SPLINE
5
215
100
AcDbEntity
8
0
100
AcDbSpline
70
4
71
3
72
8
73
4
74
0
42
0.000000001
43
0.0000000001
44
0.0000000001
40
0
40
0
40
0
40
0
40
1
40
1
40
1
40
1
41
1
41
1
41
1
41
1
10
110.78524363943356
20
174.54734129558346
30
0
10
109.27747985211425
20
178.08967332164428
30
0
10
113.23893099127199
20
179.81289231099731
30
0
10
115.7175110684924
20
175.44466276470459
30
0
0
SPLINE
5
216
100
AcDbEntity
8
0
100
AcDbSpline
70
4
71
3
72
8
73
4
74
0
42
0.000000001
43
0.0000000001
44
0.0000000001
40
-1
40
-1
40
-1
40
-1
40
0
40
0
40
0
40
0
41
1
41
1
41
1
41
1
10
89.328559613913555
20
144.4404985938281
30
0
10
85.485148172535418
20
145.91829813276729
30
0
10
81.992348021088844
20
152.06071547454343
30
0
10
82.217523642202153
20
156.72939049577877
30
0
0
SPLINE
5
217
100
AcDbEntity
8
0
100
AcDbSpline
70
4
71
3
72
8
73
4
74
0
42
0.000000001
43
0.0000000001
44
0.0000000001
40
-1
40
-1
40
-1
40
-1
40
0
40
0
40
0
40
0
41
1
41
1
41
1
41
1
10
82.217523642202153
20
156.72939049577877
30
0
10
82.395745412891799
20
163.60202262389038
30
0
10
86.857502295806839
20
168.1749303858459
30
0
10
89.328559613913555
20
175.15930507068111
30
0
0
SPLINE
5
218
100
AcDbEntity
8
0
100
AcDbSpline
70
4
71
3
72
8
73
4
74
0
42
0.000000001
43
0.0000000001
44
0.0000000001
40
-1
40
-1
40
-1
40
-1
40
0
40
0
40
0
40
0
41
1
41
1
41
1
41
1
10
89.328559613913555
20
175.15930507068111
30
0
10
91.799616932020299
20
168.17488812315432
30
0
10
96.26137381493524
20
163.60202262389038
30
0
10
96.439595585624986
20
156.72939049577877
30
0
0
SPLINE
5
219
100
AcDbEntity
8
0
100
AcDbSpline
70
4
71
3
72
8
73
4
74
0
42
0.000000001
43
0.0000000001
44
0.0000000001
40
-1
40
-1
40
-1
40
-1
40
0
40
0
40
0
40
0
41
1
41
1
41
1
41
1
10
96.439595585624986
20
156.72939049577877
30
0
10
96.664813469429888
20
152.06071547454343
30
0
10
93.172013317983385
20
145.91834039545896
30
0
10
89.328559613913555
20
144.4404985938281
30
0
0
SPLINE
5
220
100
AcDbEntity
8
0
100
AcDbSpline
70
4
71
3
72
8
73
4
74
0
42
0.000000001
43
0.0000000001
44
0.0000000001
40
0
40
0
40
0
40
0
40
1
40
1
40
1
40
1
41
1
41
1
41
1
41
1
10
92.97870376637448
20
192.41981096761714
30
0
10
92.683456602504833
20
194.44892731913572
30
0
10
92.498346013076144
20
197.37384368287593
30
0
10
92.27536805192868
20
201.51140345814085
30
0
0
SPLINE
5
221
100
AcDbEntity
8
0
100
AcDbSpline
70
4
71
3
72
8
73
4
74
0
42
0.000000001
43
0.0000000001
44
0.0000000001
40
0
40
0
40
0
40
0
40
1
40
1
40
1
40
1
41
1
41
1
41
1
41
1
10
92.27536805192868
20
201.51140345814085
30
0
10
93.867741747932101
20
197.41082353807002
30
0
10
94.589546258629099
20
195.36966231943114
30
0
10
95.414006847344979
20
193.06300687184446
30
0
0
SPLINE
5
222
100
AcDbEntity
8
0
100
AcDbSpline
70
4
71
3
72
8
73
4
74
0
42
0.000000001
43
0.0000000001
44
0.0000000001
40
0
40
0
40
0
40
0
40
1
40
1
40
1
40
1
41
1
41
1
41
1
41
1
10
95.414006847344979
20
193.06300687184446
30
0
10
95.591636940351577
20
192.39052292230343
30
0
10
95.190479471206046
20
191.70134520956054
30
0
10
94.517953258973392
20
191.52375737924558
30
0
0
SPLINE
5
223
100
AcDbEntity
8
0
100
AcDbSpline
70
4
71
3
72
8
73
4
74
0
42
0.000000001
43
0.0000000001
44
0.0000000001
40
0
40
0
40
0
40
0
40
1
40
1
40
1
40
1
41
1
41
1
41
1
41
1
10
94.517953258973392
20
191.52375737924558
30
0
10
93.84546930943236
20
191.34612728623898
30
0
10
93.156333859381078
20
191.74732701807616
30
0
10
92.97870376637448
20
192.41981096761714
30
0
0
SPLINE
5
224
100
AcDbEntity
8
0
100
AcDbSpline
70
4
71
3
72
8
73
4
74
0
42
0.000000001
43
0.0000000001
44
0.0000000001
40
0
40
0
40
0
40
0
40
1
40
1
40
1
40
1
41
1
41
1
41
1
41
1
10
100.16183989004146
20
195.59910647240116
30
0
10
99.188445575949729
20
197.40385019394773
30
0
10
98.011260562719684
20
200.08778468989746
30
0
10
96.382540951896999
20
203.89785086756348
30
0
0
SPLINE
5
225
100
AcDbEntity
8
0
100
AcDbSpline
70
4
71
3
72
8
73
4
74
0
42
0.000000001
43
0.0000000001
44
0.0000000001
40
0
40
0
40
0
40
0
40
1
40
1
40
1
40
1
41
1
41
1
41
1
41
1
10
96.382540951896999
20
203.89785086756348
30
0
10
99.284889038295873
20
200.59227444012819
30
0
10
100.66307541301509
20
198.92256001840451
30
0
10
102.22873908789551
20
197.03865827539664
30
0
0
SPLINE
5
226
100
AcDbEntity
8
0
100
AcDbSpline
70
4
71
3
72
8
73
4
74
0
42
0.000000001
43
0.0000000001
44
0.0000000001
40
0
40
0
40
0
40
0
40
1
40
1
40
1
40
1
41
1
41
1
41
1
41
1
10
102.22873908789551
20
197.03865827539664
30
0
10
102.62626196555907
20
196.46790062465817
30
0
10
102.48582304120482
20
195.68295565263548
30
0
10
101.91506539046631
20
195.28543277497189
30
0
0
SPLINE
5
227
100
AcDbEntity
8
0
100
AcDbSpline
70
4
71
3
72
8
73
4
74
0
42
0.000000001
43
0.0000000001
44
0.0000000001
40
0
40
0
40
0
40
0
40
1
40
1
40
1
40
1
41
1
41
1
41
1
41
1
10
101.91506539046631
20
195.28543277497189
30
0
10
101.34430773972774
20
194.8879098973083
30
0
10
100.55936276770504
20
195.02834882166255
30
0
10
100.16183989004146
20
195.59910647240116
30
0
0
SPLINE
5
228
100
AcDbEntity
8
0
100
AcDbSpline
70
4
71
3
72
8
73
4
74
0
42
0.000000001
43
0.0000000001
44
0.0000000001
40
-1
40
-1
40
-1
40
-1
40
0
40
0
40
0
40
0
41
1
41
1
41
1
41
1
10
92.97870376637448
20
232.90497606988399
30
0
10
93.156333859381078
20
233.57746001942505
30
0
10
93.84546930943236
20
233.97865975126217
30
0
10
94.517953258973392
20
233.80102965825557
30
0
0
SPLINE
5
229
100
AcDbEntity
8
0
100
AcDbSpline
70
4
71
3
72
8
73
4
74
0
42
0.000000001
43
0.0000000001
44
0.0000000001
40
-1
40
-1
40
-1
40
-1
40
0
40
0
40
0
40
0
41
1
41
1
41
1
41
1
10
94.517953258973392
20
233.80102965825557
30
0
10
95.190479471206046
20
233.62344182794064
30
0
10
95.591636940351577
20
232.93426411519772
30
0
10
95.414006847344979
20
232.26178016565672
30
0
0
SPLINE
5
230
100
AcDbEntity
8
0
100
AcDbSpline
70
4
71
3
72
8
73
4
74
0
42
0.000000001
43
0.0000000001
44
0.0000000001
40
-1
40
-1
40
-1
40
-1
40
0
40
0
40
0
40
0
41
1
41
1
41
1
41
1
10
95.414006847344979
20
232.26178016565672
30
0
10
94.589546258629099
20
229.95512471807007
30
0
10
93.867741747932101
20
227.91396349943113
30
0
10
92.27536805192868
20
223.81338357936031
30
0
0
SPLINE
5
231
100
AcDbEntity
8
0
100
AcDbSpline
70
4
71
3
72
8
73
4
74
0
42
0.000000001
43
0.0000000001
44
0.0000000001
40
-1
40
-1
40
-1
40
-1
40
0
40
0
40
0
40
0
41
1
41
1
41
1
41
1
10
92.27536805192868
20
223.81338357936031
30
0
10
92.498346013076144
20
227.9509433546252
30
0
10
92.683456602504833
20
230.87585971836543
30
0
10
92.97870376637448
20
232.90497606988399
30
0
0
ENDSEC
0
SECTION
2
OBJECTS
0
DICTIONARY
5
C
100
AcDbDictionary
3
ACAD_GROUP
350
D
3
ACAD_MLINESTYLE
350
17
0
DICTIONARY
5
D
100
AcDbDictionary
0
DICTIONARY
5
1A
330
C
100
AcDbDictionary
0
DICTIONARY
5
17
100
AcDbDictionary
0
ENDSEC
0
EOF
